música
Buscador

Acorde de Amame - Marco Di Mauro

Letra de Amame

CON CAPO EN 1ER TRASTE



INTRO:

F C A# Am G C…

E[-5----5-------------------------------]

B[-----6--8---5-8-6----5----5-----------]

G[---5------5--------------5--7--4-7-5--]

D[-----------------------7-----5--------]

A[--------------------------------------]

E[--------------------------------------]



ESTROFAS 1:

C Am

Como fuera tu primera vez

F

Como si desde siempre

G

Así ámame

C

Como SI

Am

Nunca tuviera fin

F

Como fuera tu fe

G

Así ámame

C

Aunque afuera llueva

Am

Aunque baje el frío

F

No se para el rio

G

Así ámame





ESTRIBILLO:

C

Más que al cielo

Am

Que a tu pelo

F

Que al verano

http://www.coveralia.com/acordes/amame-marco-di-mauro.php

G

Que a tu mano



C

Más que al aire

Am

Que al chocolate

F

Que a un tesoro

G

Sobre todo



INTERMEDIO:

F C A#...

E[-5----5-----------]

B[-----6--8---5-8-6-]

G[---5------5-------]

D[------------------]

A[------------------]

e[------------------]



ESTROFAS 2:

C

Tanto que

Am

No me lo pueda creer

F

Como si nadie antes

G

Así ámame

C

Sin medida

Am

Como mil por ciento

F

Que me duela dentro

G

Así ámame



-ESTRIBILLO-

Y UN SOLO FINAL…

Letra subida por: Anónimo

Discos en los que aparece este acorde: ¡Te Quiero! , ¡Te Quiero! (Version Deluxe)

El acorde de Amame de Marco Di Mauro es una versión de la canción original realizada por colaboradores/usuarios de Coveralia.

¿Has encontrado algún error en esta página? Envíanos tu corrección del acorde