música
Buscador

Acorde de Always - Saliva

Letra de Always



------------------------------------------|

------------------------------------------|

------------------------7-----------------| Repeat untill (cry?)

------2--------5------7---7-----7---------|

----2---2----5---5--5---------7---7-------|

--0--------3----------------5-------------|



I hear, a voice say "Don't be so blind"



It's telling me all of these things



That you would probably hide.



Am I your one and only desire?



Am I the reason you breathe,



Or am I the reason you cry?

C Bm

Always, always, always,

Am C

Always, always, always,

D

I just can't live without you!



Em G D

I love you, I hate you!

Am Em

I can't get around you!

G D

I breathe you I taste you!

Am Em

I can't live without you!

G D Am Em

I just can't take anymore, this life of solitude.

G D Am Em (let ring)

I guess that I'm out the door, and now I'm done with you!



------------------------------------------|

------------------------------------------|

------------------------7-----------------| Repeat untill (Sound!)

------2--------5------7---7-----7---------|

----2---2----5---5--5---------7---7-------|

--0--------3----------------5-------------|



(Done with you)



I feel, like you don't want me around



I guess I'll pack all my things



I guess I'll see you around



It's all, been bottled up till now



As I walk out your door



All I can hear is the sound!



C Bm

Always, always, always,

Am C

Always, always, always

D Em

I just can't live without you!



G D

I love you I hate you,

http://www.coveralia.com/acordes/always-saliva.php

Am Em

I can't get around you!

G D

I breathe you I taste you,

Am Em

I can't live without you!

G D Am Em

I just can't take anymore this life of solitude.

G D Am

I guess that I'm out the door and now I'm done with you.



Em G D

I love you I hate you,

Am

I can't live without you.



Am G (Em,Em,Cmaj7)x2

I wrap my hands around your heart,

Am G (Em,Em,Cmaj7)x2

Why would you tear my world apart?

Am C D

Always, always, always, always.

------------------------------------------|

------------------------------------------|

------------------------7-----------------| Repeat untill (sound!)

------2--------5------7---7-----7---------|

----2---2----5---5--5---------7---7-------|

--0--------3----------------5-------------|





I see, the blood all over your hands



Does it make you feel, more like a man?



Was it all, just a part of your plan?



The pistols' shakin' in my hands



And all I hear is the sound!



Em G D

I love you, I hate you!

Am Em

I can't get around you!

G D

I breathe you I taste you!

Am Em

I can't live without you!

G D Am Em

I just can't take anymore, this life of solitude.

G D Am

I guess that I'm out the door, and now I'm done with you!



Em G D

I love you, I hate you,

C Em

I can't live without you!

G D

I love you, I hate you,

C Em

I can't live without you.

G D Am Em

I just can't take anymore, this life of solitude

G D C Em

I pick myself off the floor, and now I'm done with you.

G D C

Always, Always, Always.



Letra subida por: Anónimo

Discos en los que aparece este acorde: Back Into Your System ,

El acorde de Always de Saliva es una versión de la canción original realizada por colaboradores/usuarios de Coveralia.

¿Has encontrado algún error en esta página? Envíanos tu corrección del acorde