música
Buscador

Acorde de Always In My Head - Coldplay

Letra de Always In My Head

Em         G   Bm           A     Em 

I think of you, I haven't slept

G Bm A

I think I do, but I don't forget



Em G

My body moves, goes where I will

Bm A

But though I try, my heart stays still



Em G

And memories just won't be left

Bm A

So my mouth waters to be filled

Em G

And you're always in my head



Bm A

You're always in my head

Em G

You're always in my head

Bm A

You're always in my head



(Sem Capotraste)

http://www.coveralia.com/acordes/always-in-my-head-coldplay.php

E|---8-----8-----8-----8-----8-----8-----8-----8-----8-----8----|

B|6-----6-----6-----6-----6-----6-----6-----6-----6-----6-----6-|

G|--------------------------------------------------------------|

D|--------------------------------------------------------------|

A|--------------------------------------------------------------|

D|--------------------------------------------------------------|



E|---8-----10-----8-----8-----10-----8-----8-----10-----8-----8-|

B|6-----6------6-----6-----6------6-----6-----6------6-----6----|

G|--------------------------------------------------------------|

D|--------------------------------------------------------------|

A|--------------------------------------------------------------|

D|--------------------------------------------------------------|



Em G

You're always in my head

Bm A

Always in my, always in my



Em G Bm

This I guess

A Em

Is to tell you you're chosen out from the rest

Letra subida por: Anónimo

El acorde de Always In My Head de Coldplay es una versión de la canción original realizada por colaboradores/usuarios de Coveralia.

¿Has encontrado algún error en esta página? Envíanos tu corrección del acorde