música
Buscador

Acorde de All Your Friends - Coldplay

Letra de All Your Friends

Intro: 



F#m C#m E C#m F#m C#m E (2x)



Verse:



F#m C#m E

On and on

C#m F#m C#m E

You're told which side you're on

C#m F#m

Aaaaah

C#m E

I forced your throne

C#m F#m C#m E

To become science to cut the con

C#m D

Aaaaah





D

All your friends think

C#m

Ride into the sunset

E

Fly into the sunset

D

And away we blow

D

All your friends think

C#m

Ride into the sunset

E

Fly into the sunset

D

And away we're thrown

Bm E F#m

Into the fiiiiiiire





BREAK: C#m E C#m F#m C#m E C#m



Verse:



F#m C#m E

Ten below

C#m F#m C#m E

The call come on the radio

C#m F#m

Aaaah

C#m E

I felt you go

C#m F#m C#m

And red now, all the rivers flow

E

http://www.coveralia.com/acordes/all-your-friends-coldplay.php

Poppies grow

C#m D

Aaaaaah





D

All your friends think

C#m

Ride into the sunset

E

Fly into the sunset

D

And away we blow

D

All your friends think

C#m

Ride into the sunset

E

Ride into the sunset

D

And we're taken home

Bm E F#m

Open fiiiiiire

Bm E F#m

Open fiiiiiire



Solo: (each note played like '1 e and a 2 e and a' etc.)



D E

e|-----------------------------------------------------------------------------------|

B|---------9---------9---------9---------9-12-9------12-9------12-9------12-9--------|

G|----9-11------9-11------9-11------9-11--------11-9------11-9------11-9------11-9---|(onto next segment)

D|-11--------11--------11--------11--------------------------------------------------|

A|-----------------------------------------------------------------------------------|

E|-----------------------------------------------------------------------------------|



C#m Bsus4

e|-----------------------------------------------------------------------------------|

B|---------9---------9---------9---------9-12-9------12-9------12-9------12-9--------|

G|----9-11------9-11------9-11------9-11--------11-9------11-9------11-9------11-9---|(repeat whole solo twice)

D|-11--------11--------11--------11--------------------------------------------------|

A|-----------------------------------------------------------------------------------|

E|-----------------------------------------------------------------------------------|



OUTRO:

D E F#m

Open fiiiiiire

Bm E F#m

Open fiiiiiire

Bm E F#m

Open fiiiiiire

Bm E F#m

Just a ride and fire

Letra subida por: Anónimo

Discos en los que aparece este acorde: Ghost Stories (Target Edition) , A Sky Full Of Stars (Ep)

El acorde de All Your Friends de Coldplay es una versión de la canción original realizada por colaboradores/usuarios de Coveralia.

¿Has encontrado algún error en esta página? Envíanos tu corrección del acorde