música
Buscador

Acorde de Agua Con Sal - Real De Catorce

Intro:



Esto se hace en la intro entre acorde y acorde:



|----3-3----3-3----3-3----3-3---------|

|----3-3----3-3----3-3----3-3---3-----|

|-5b-----5b-----5b-----5b-------4-----|

|----------------------------------5--|

|-------------------------------------|

|-------------------------------------|



G C G D C G C C# D Eb7 D7



Versos:



G C G

¡Oh, mama!, tengo un corazon muy oscuro

C G

¡Oh, mama!, tengo un corazon pecador,

B C C C# D Eb

llevo aquí metal, un pedazo de carbon, mamá.

G E A D7 G C C# D Eb7 D7

http://www.coveralia.com/acordes/agua-con-sal-real-de-catorce.php

Soy el perdedor en el poker de tu vanidad.



¡Oh, mama!, soy la oveja negra de tu nido

¡Oh, mama!, prende una cerita por mi;

no me busques mas, dejame vivir asi;

Soy el perdedor en el poker de tu frenesi.



Solo(los acordes de la intro).







Acordes:



C C# D D7 Eb Eb7 E G A B

|-3--4--5--x--6---x---7--3--5--7--|

|-5--6--7--3--8---4---9--3--5--7--|

|-5--6--7--5--8---6---9--4--6--8--|

|-5--6--7--4--8---5---9--5--7--9--|

|-3--4--5--5--6---6---7--5--7--9--|

|-x--x--x--x--x---x---x--3--5--7--|



Letra subida por: Anónimo

Discos en los que aparece este acorde: Nueve

El acorde de Agua Con Sal de Real De Catorce es una versión de la canción original realizada por colaboradores/usuarios de Coveralia.

¿Has encontrado algún error en esta página? Envíanos tu corrección del acorde