música
Buscador

Acorde de Agape - Bear's Den

Letra de Agape

Open D Tuning
Capo 2

Intro/Verse
              E          C#m        B          A
D       ------0----------0----------0----------0--------|
A       ------0----------0----------0----------0--------|
F#      ------3----------0----------7----------3--------|
D       ------0----------0----------0----------0--------|
A       ------0----------9----------7----------5--------|
D       ------0----------9----------7----------5--------|

Chorus
              C#m         A          E          B
D       ------0----------0----------0----------0--------|
A       ------0----------0----------0----------0--------|
F#      ------0----------3----------3----------7--------|
D       ------0----------0----------0----------0--------|
A       ------9----------5----------0----------7--------|
D       ------9----------5----------0----------7--------|

Intro   E       C#m      B       A       x2

Verse
E
Agape
             C#m
Please don't dissipate
       B                                A
Yeah I know that I have got it so wrong
    E
I'm reaching out
   C#m
To touch your voice
    B                      A
But baby I'm clutching at straws

E
Even though
           C#m
Your words hurt the most
                B                  A
I still want to hear them everyday
        E
You say let it go
            C#m
But I can't let it go
            B                             A
I want to believe every word that you say

Chorus
        C#m
For I'm so scared of losing you
      A                         E
And I don't know what I can do about it
 B
About it
               C#m
So tell me how long love before you go
          A
And leave me here on my own
  E
I know it
                B                    A
I don't want to know who I am without you

E       C#m     B       A       x1

Verse
Well Agape
Please don't dissipate
Yeah I know that I have got it so wrong
I'm reaching out
To touch you now
But baby I'm clutching at straws

Chorus
For I'm so scared of losing you
And I don't know what I can do about it
About it
So tell me how long love before you go
And leave me here on my own
I know it
I don't want to know who I am without you

B    A
I don't want to know
                B    A
I don't want to know
                B    A
I don't want to know

For I'm so scared of losing you
And I don't know what I can do about it
About it
So tell me how long love before you go
And leave me here on my own
I know it, yeah I know it
Tell me how long love before you go
And leave me here on my own
I know it
I don't want to know who I am without you
I don't want to know who I am without you


Letra subida por: Anónimo

Discos en los que aparece este acorde: Islands

El acorde de Agape de Bear's Den es una versión de la canción original realizada por colaboradores/usuarios de Coveralia.

¿Has encontrado algún error en esta página? Envíanos tu corrección del acorde