música
Buscador

Acorde de Abeja Reina - Los Guarros



INTRO:



E |--------2h3-2------------------3p2--------------------|

B |-2h3----------5/7-------2h3-----------5/7-----3-------|

G |------------------------------------------------------|

D |------------------------------------------------------|

A |------------------------------------------------------|

E |------------------------------------------------------|



h= hammer on

p = pull off

/ = slide



ESTROFA I



D D9 G/B G/A#

Abeja reina

D D9 G/B G/A#

voy a trabajar para vos



D D9 G/B G/A#

a pasar la noche desvelado

D D9 G/B G/A#



por vos por vos



D D9 G/B G/A#

Abeja reina

D D9 G/B G/A#

venderé mi alma por vos

D D9 G/B G/A#

pasare la noche solo y aburrido

D D9 G/B G/A#

en una cárcel de cristal







ESTRIBILLO



A D Dsus4

Cuando el amor sea muy grande

A D Dsus4

y mas te acerques a mi

D9 D

otra vez voy a ser devorado

Bm E D

otra vez voy a ser devorado por vos

D

por vos







ESTROFA I



Entra en mi habitación

http://www.coveralia.com/acordes/abeja-reina-los-guarros.php

cierra la puerta y viene a mi

bajo la luz roja tus ojos me acechan

desde tu cara como diciendo

hoy no tengo tiempo para vos

hoy no tengo tiempo para vos

nos veremos otro día

nos veremos en otra vida



ESTRIBILLO



Cuando el amor sea muy grande

y mas te acerques a mi

otra vez voy a ser devorado

otra vez voy a ser devorado por vos

por vos





ESTROFA I



Abeja reina voy a trabajar para vos

a pasar la noche desvelado

en una cárcel de cristal



ESTRIBILLO



Cuando el amor sea muy grande

y mas te acerques a mi

otra vez voy a ser devorado

otra vez voy a ser devorado por vos

por vos







El G/A# creo que esta bien el nombre. Por las dudas es asi:



E|-3--------|

B|-3--------|

G|-0--------|

D|-0--------|

A|-1--------|

E|-X--------|



El acorde D9 se puede hacer con el mi en la 4ta cuerda o con re al aire,

queda major D9 a mi gusto...

D9* D9

E|-3--------| E|-3--------|

B|-3--------| B|-3--------|

G|-0--------| ó G|-0--------|

D|-0--------| D|-2--------|

A|-3--------| A|-3--------|

E|-X--------| E|-X--------|









Letra subida por: Anónimo

Discos en los que aparece este acorde: Los Guarros

El acorde de Abeja Reina de Los Guarros es una versión de la canción original realizada por colaboradores/usuarios de Coveralia.

¿Has encontrado algún error en esta página? Envíanos tu corrección del acorde