música
Buscador

Acorde de Abarrotería De Amor - Ricardo Arjona

Letra de Abarrotería De Amor

Intro:



Guitarra 1:



^ ^ v ^ v v ^ v ^ v ^ ^ ^ v ^ v v ^ v ^ v ^

1. --5-5-5-5-5-5--5-5-5-5-5--5-5-5-5-5-5--5-5-5-5-5--

2. --5-5-5-5-5-5--5-5-5-5-5--5-5-5-5-5-5--5-5-5-5-5--

3. --6-6-6-6-6-6--6-6-6-6-6--6-6-6-6-6-6--6-6-6-6-6--

4. --7-7-7-7-7-7--7-7-7-7-7--7-7-7-7-7-7--7-7-7-7-7--

5. --7-7-7-7-7-7--7-7-7-7-7--7-7-7-7-7-7--7-7-7-7-7--

6. --5-5-5-5-5-5--5-5-5-5-5--5-5-5-5-5-5--5-5-5-5-5--



Guitarra 1:



v v ^ v v ^ v v v v ^ v v ^ v v ^ v v v v ^

1. --5-5-5-5-5-5--5-5-5--5-5--5-5-5-5-5-5--5-5-5--5-5--

2. --5-5-5-5-5-5--5-5-5--5-5--5-5-5-5-5-5--5-5-5--5-5--

3. --6-6-6-6-6-6--6-6-6--6-6--6-6-6-6-6-6--6-6-6--6-6--

4. --7-7-7-7-7-7--7-7-7--7-7--7-7-7-7-7-7--7-7-7--7-7--

5. --7-7-7-7-7-7--7-7-7--7-7--7-7-7-7-7-7--7-7-7--7-7--

6. --5-5-5-5-5-5--5-5-5--5-5--5-5-5-5-5-5--5-5-5--5-5—-



Guitarra 2:



1. -----5p3-5--------------------------------------------

2. -----------------------------------8-8-5-3-3h5p3-5----

3. ---7-----------------------------------------------4--

4. ------------------------------------------------------

5. ------------------------------------------------------

6. ------------------------------------------------------



A D A

El misterio estaba alli, en aquella casa color ladrillo,

v v ^ v v ^ v v v v ^ v v ^ v v ^ v v v v ^

1. --5-5-5-5-5-5--5-5-5--5-5--5-5-5-5-5-5--5-5-5--5-5--

2. --5-5-5-5-5-5--5-5-5--5-5--5-5-5-5-5-5--5-5-5--5-5--

3. --6-6-6-6-6-6--6-6-6--6-6--6-6-6-6-6-6--6-6-6--6-6--

4. --7-7-7-7-7-7--7-7-7--7-7--7-7-7-7-7-7--7-7-7--7-7--

5. --7-7-7-7-7-7--7-7-7--7-7--7-7-7-7-7-7--7-7-7--7-7--

6. --5-5-5-5-5-5--5-5-5--5-5--5-5-5-5-5-5--5-5-5--5-5—-

____________________________________________________________________________

1. -----------------------------------------------------0-0-----0------

2. ---------------------------------------------------------0h1---0-1--

3. ----------------------5/8-------------------------------------------

4. --------------------------------------------------------------------

5. --------------------------------------------------------------------

6. --------------------------------------------------------------------



E7 E A

un palo rojo en la puerta y un letrero amarillo.

v v ^ v v ^ v v v v ^

1. --5-5-5-5-5-5--5-5-5--5-5---

2. --5-5-5-5-5-5--5-5-5--5-5---

3. --6-6-6-6-6-6--6-6-6--6-6---

4. --7-7-7-7-7-7--7-7-7--7-7---

5. --7-7-7-7-7-7--7-7-7--7-7---

6. --5-5-5-5-5-5--5-5-5--5-5-—-

____________________________________________________________________________

1. ----------------------------------------------8-5--5h6-5-7-5--

2. --------------------------------------------------------------

3. --------------------------------------------------------------

4. --------------------------------------------------------------

5. --------------------------------------------------------------

6. --------------------------------------------------------------



A D A

Era una abarroteria de amor, unos billetes para conocer el sabor,

v v ^ v v ^ v v v v ^ v v ^ v v ^ v v v v ^

1. --5-5-5-5-5-5--5-5-5--5-5--5-5-5-5-5-5--5-5-5--5-5--

2. --5-5-5-5-5-5--5-5-5--5-5--5-5-5-5-5-5--5-5-5--5-5--

3. --6-6-6-6-6-6--6-6-6--6-6--6-6-6-6-6-6--6-6-6--6-6--

4. --7-7-7-7-7-7--7-7-7--7-7--7-7-7-7-7-7--7-7-7--7-7--

5. --7-7-7-7-7-7--7-7-7--7-7--7-7-7-7-7-7--7-7-7--7-7--

6. --5-5-5-5-5-5--5-5-5--5-5--5-5-5-5-5-5--5-5-5--5-5—-

___________________________________________________________________________

1. ----------------------------------------------------------7h8-7-5---

2. --------------------------------------------------------------------

3. --------------------------5-5-5-5b----------------------------------

4. --------------------------------------------------------------------

5. --------------------------------------------------------------------

6. --------------------------------------------------------------------



E7 E A

de una cama compartida con dama sin nombre.

v v ^ v v ^ v v v v

1. --5-5-5-5-5-5--5-5-5--5--

2. --5-5-5-5-5-5--5-5-5--5--

3. --6-6-6-6-6-6--6-6-6--6--

4. --7-7-7-7-7-7--7-7-7--7--

5. --7-7-7-7-7-7--7-7-7--7--

6. --5-5-5-5-5-5--5-5-5--5—-

____________________________________________________________________________

1. ------------------------------------------0h5-0-3-5---------3----

2. ----------------------------------------------------3-3/5-3---5--

3. -----------------------------------------------------------------

4. -----------------------------------------------------------------

5. -----------------------------------------------------------------

6. -----------------------------------------------------------------





A D A

Con el fantasma de la virginidad, el ahorro perdio la dignidad,

v v ^ v v ^ v v v v ^ v v ^ v v ^ v v v v ^

1. --5-5-5-5-5-5--5-5-5--5-5--5-5-5-5-5-5--5-5-5--5-5--

2. --5-5-5-5-5-5--5-5-5--5-5--5-5-5-5-5-5--5-5-5--5-5--

3. --6-6-6-6-6-6--6-6-6--6-6--6-6-6-6-6-6--6-6-6--6-6--

4. --7-7-7-7-7-7--7-7-7--7-7--7-7-7-7-7-7--7-7-7--7-7--

5. --7-7-7-7-7-7--7-7-7--7-7--7-7-7-7-7-7--7-7-7--7-7--

6. --5-5-5-5-5-5--5-5-5--5-5--5-5-5-5-5-5--5-5-5--5-5—-

__________________________________________________________________________

1. ------------------------------------------------------8b-8b----0--

2. --------------------------------7p5-7-----------------------10----

3. ------------------------------------------------------------------

4. ------------------------------------------------------------------

5. ------------------------------------------------------------------

6. ------------------------------------------------------------------



http://www.coveralia.com/acordes/abarroteria-de-amor-ricardo-arjona.php



rompi la alcancia, toque la puerta y entre.

v v ^ v v ^ v v v v ^ v v ^ v v ^ v v v v ^

1. --5-5-5-5-5-5--5-5-5--5-5--5-5-5-5-5-5--5-5-5--5-5--

2. --5-5-5-5-5-5--5-5-5--5-5--5-5-5-5-5-5--5-5-5--5-5--

3. --6-6-6-6-6-6--6-6-6--6-6--6-6-6-6-6-6--6-6-6--6-6--

4. --7-7-7-7-7-7--7-7-7--7-7--7-7-7-7-7-7--7-7-7--7-7--

5. --7-7-7-7-7-7--7-7-7--7-7--7-7-7-7-7-7--7-7-7--7-7--

6. --5-5-5-5-5-5--5-5-5--5-5--5-5-5-5-5-5--5-5-5--5-5—-





CORO: (Sigue con el ritmo anterior)



D

No hubo celos ni suegras,

Dm A

ni tuve que invitarlas al cine,

A7 Bm D A

no escenas ni cuñados, y menos un maldito abogado,

D

era todo democracia,

Dm A

no habia edad ni clases sociales,

A7 Bm D A

si cumplias con la tarifa, tenias tu pedacito de cielo.



D Dm

Cuatro besos, medio kilo de amor,

A F#m

dos abrazos y un litro de sudor,

D E A

una abarroteria de amor, ehh.



D A E A



A D A

Alli encontre a mi maestro de escuela, a un ginecologo y un intelectual

v v ^ v v ^ v v v v ^ v v ^ v v ^ v v v v ^

1. --5-5-5-5-5-5--5-5-5--5-5--5-5-5-5-5-5--5-5-5--5-5--

2. --5-5-5-5-5-5--5-5-5--5-5--5-5-5-5-5-5--5-5-5--5-5--

3. --6-6-6-6-6-6--6-6-6--6-6--6-6-6-6-6-6--6-6-6--6-6--

4. --7-7-7-7-7-7--7-7-7--7-7--7-7-7-7-7-7--7-7-7--7-7--

5. --7-7-7-7-7-7--7-7-7--7-7--7-7-7-7-7-7--7-7-7--7-7--

6. --5-5-5-5-5-5--5-5-5--5-5--5-5-5-5-5-5--5-5-5--5-5—-



E7 E A

a tres cantautores borrachos, y a un gobernador.

v v ^ v v ^ v v v v

1. --5-5-5-5-5-5--5-5-5--5--

2. --5-5-5-5-5-5--5-5-5--5--

3. --6-6-6-6-6-6--6-6-6--6--

4. --7-7-7-7-7-7--7-7-7--7--

5. --7-7-7-7-7-7--7-7-7--7--

6. --5-5-5-5-5-5--5-5-5--5—-



A D A

No te pongas nervioso me dijo, una chica vestida de rojo,

v v ^ v v ^ v v v v ^ v v ^ v v ^ v v v v ^

1. --5-5-5-5-5-5--5-5-5--5-5--5-5-5-5-5-5--5-5-5--5-5--

2. --5-5-5-5-5-5--5-5-5--5-5--5-5-5-5-5-5--5-5-5--5-5--

3. --6-6-6-6-6-6--6-6-6--6-6--6-6-6-6-6-6--6-6-6--6-6--

4. --7-7-7-7-7-7--7-7-7--7-7--7-7-7-7-7-7--7-7-7--7-7--

5. --7-7-7-7-7-7--7-7-7--7-7--7-7-7-7-7-7--7-7-7--7-7--

6. --5-5-5-5-5-5--5-5-5--5-5--5-5-5-5-5-5--5-5-5--5-5—-



E7 E A

entre a su cuarto siendo un chiquillo y al salir fui un señor.

v v ^ v v ^ v v v v ^ v

1. --5-5-5-5-5-5--5-5-5--5-5--5---

2. --5-5-5-5-5-5--5-5-5--5-5--5---

3. --6-6-6-6-6-6--6-6-6--6-6--6---

4. --7-7-7-7-7-7--7-7-7--7-7--7---

5. --7-7-7-7-7-7--7-7-7--7-7--7---

6. --5-5-5-5-5-5--5-5-5--5-5-—5---





A D A

En la escuela me hablaban de Colon, y de las tablas de multiplicacion,

v v ^ v v ^ v v v v ^ v v ^ v v ^ v v v v ^

1. --5-5-5-5-5-5--5-5-5--5-5--5-5-5-5-5-5--5-5-5--5-5--

2. --5-5-5-5-5-5--5-5-5--5-5--5-5-5-5-5-5--5-5-5--5-5--

3. --6-6-6-6-6-6--6-6-6--6-6--6-6-6-6-6-6--6-6-6--6-6--

4. --7-7-7-7-7-7--7-7-7--7-7--7-7-7-7-7-7--7-7-7--7-7--

5. --7-7-7-7-7-7--7-7-7--7-7--7-7-7-7-7-7--7-7-7--7-7--

6. --5-5-5-5-5-5--5-5-5--5-5--5-5-5-5-5-5--5-5-5--5-5—-



E7 E A

pero no mencionaron, como es que se hacia el amor.

v v ^ v v ^ v v v v ^ v v ^ v v ^ v v v v ^

1. --5-5-5-5-5-5--5-5-5--5-5--5-5-5-5-5-5--5-5-5--5-5--

2. --5-5-5-5-5-5--5-5-5--5-5--5-5-5-5-5-5--5-5-5--5-5--

3. --6-6-6-6-6-6--6-6-6--6-6--6-6-6-6-6-6--6-6-6--6-6--

4. --7-7-7-7-7-7--7-7-7--7-7--7-7-7-7-7-7--7-7-7--7-7--

5. --7-7-7-7-7-7--7-7-7--7-7--7-7-7-7-7-7--7-7-7--7-7--

6. --5-5-5-5-5-5--5-5-5--5-5--5-5-5-5-5-5--5-5-5--5-5—-





D

No hubo celos ni suegras,

Dm A

ni tuve que invitarlas al cine,

A7 Bm D A

no escenas ni cuñados, y menos un maldito abogado,

D

era todo democracia,

Dm A

no habia edad ni clases sociales,

A7 Bm D A

si cumplias con la tarifa, tenias tu pedacito de cielo.



D Dm

Cuatro besos, medio kilo de amor,

A F#m

dos abrazos y un litro de sudor,

D E A

una abarroteria de amor.

Discos en los que aparece este acorde: Lados B , Si El Norte Fuera El Sur

El acorde de Abarrotería De Amor de Ricardo Arjona es una versión de la canción original realizada por colaboradores/usuarios de Coveralia.

¿Has encontrado algún error en esta página? Envíanos tu corrección del acorde