música
Buscador

Acorde de A Whisper - Coldplay

Letra de A Whisper



**Tuning: EAEGBe**

Capo 3



Chords used:



E Eadd9 Cmaj7 C? Asus4 A Asus2 Em Bm G6 Aadd9

e|--0-----0-----0-----0-----0-----0-----0-----0-----0-----0-----0--|

B|--0-----0-----0-----0-----3-----2-----0-----0-----0-----3-----0--|

G|--1-----1-----0-----0-----2-----2-----2-----0-----7-----4-----6--|

E|--0-----2-----0-----2-----0-----0-----0-----0-----0-----0-----0--|

A|--2-----2-----3-----3-----0-----0-----0-----------9-----5-----7--|

E|--0-----0-----------------------------------------7-----3-----5--|





Main "whisper" riff: (strum pattern NOT shown)



E Eadd9 Cmaj7 C?

e|--0-----0-----0-----0--|

B|--0-----0-----0-----0--|

G|--1-----1-----0-----0--|

E|--0-----2-----0-----2--|

A|--2-----2-----3-----3--|

E|--0-----0--------------|



Verse: (strum pattern shown, all down strums)



Asus4 A Asus4 A Asus2 Em E

e|--0--0--0--0--0--0-----|--0--0--0--0--0--0--0----------------------|

B|--3--3--3--2--2--2-----|--3--3--3--2--0--0--0----------------------|

G|--2--2--2--2--2--2--x3-|--2--2--2--2--2--0--1--(back to "whisper")-|

E|--0--0--0--0--0--0-----|--0--0--0--0--0--0--0----------------------|

A|--0--0--0--0--0--0-----|--0--0--0--0--0-----2----------------------|

E|-----------------------|--------------------0----------------------|

http://www.coveralia.com/acordes/a-whisper-coldplay.php





Bridge: (strum pattern NOT shown)



Bm G6 Aadd9

e|--0---0---0------|--0--0--0--0----------------------|

B|--0---3---0------|--2--0--0--0----------------------|

G|--7---4---6------|--2--2--0--1--(back to "whisper")-|

E|--0---0---0---x2-|--0--0--0--0----------------------|

A|--9---5---7------|--0--0--0--2----------------------|

E|--7---3---5------|-----------0----------------------|



Outro: (strum pattern shown)



G6 Aadd9 E

e|--0--0--0--0--0--0--0--0-0--0--0-0------------------|

B|--3--3--3--0--0--0--0--0-0--0--0-0------------------|

G|--4--4--4--6--6--6--1--1-1--1--1-1------------------|

E|--0--0--0--0--0--0--0--0-0--0--0-0--repeat till end-|

A|--5--5--5--7--7--7--2--2-2--2--2-2------------------|

E|--3--3--3--5--5--5--0--0-0--0--0-0------------------|





| / slide up

| slide down

| h hammer-on

| p pull-off

| ~ vibrato

| + harmonic

| x Mute note

===============================================================================





Letra subida por: Anónimo

Discos en los que aparece este acorde: A Rush Of Blood To The Head

El acorde de A Whisper de Coldplay es una versión de la canción original realizada por colaboradores/usuarios de Coveralia.

¿Has encontrado algún error en esta página? Envíanos tu corrección del acorde