música
Buscador

Acorde de A Cara O Cruz - Angeles Del Infierno

Letra de A Cara O Cruz

D                            D 
Mucha,mucha policía por las calles todo el día 
C                         C     B                                          G 
Buscando delincuentes que no están entre la  gente, entre la gente, 
     B     G 
entre la gente, entre la gente 
D                         D 
Políticos mamones que nos tocan los cojones 
C                        C 
Vendiendo un futuro que no vale ni un duro, 

B 
ni un  duro,ni un duro 

Riff A 
     Guitarra 1 
E-]-----------------------------------------------------------]----------------| 
B-]-----------------------------------------------------------]----------------| 
G-]-----------------------------------------------------------]----------------| 
D-]--------------------------------------------3--------------]--5----(5)--7---| 
A-]-5------------5-------------------3---------1--------------]--3----(3)--5---| 
E-]-3------------3-------------------1------------------------]----------------| 
  ] 
  ]    Guitarra 2 
E-]---------------------------------------------6--6-6-6--5-5-]----------------| 
B-]-8-x-x-8-x-x-8---8---8---8---------6-----------------------]----------------| 
G-]-----------------------------------------------------------]----------------| 
D-]-----------------------------------------------------------]----------------| 
A-]-----------------------------------------------------------]----------------| 
E-]-----------------------------------------------------------]----------------| 

    No    se   que   puedo  hacer 

Riff B 
E-]----------------------------------------------------------------------------| 
B-]----------------------------------------------------------------------------| 
G-]----------------------------------------------------------------------------| 
D-]--7------7------7----------7--5------5------5----------5--3------3------3---| 
A-]--5--5-5-5--5-5-5--5-5-5-5-5--3--3-3-3--3-3-3--3-3-3-3-3--1--1-1-1--1-1-1---| 
E-]----------------------------------------------------------------------------| 
    Na na na na na na na na ..... 

E-]----------------------------------------------------------]-----------------| 
B-]----------------------------------------------------------]-----------------| 
G-]----------------------------------------------------------]-----------------| 
D-]---------3------------------------------------------------]-----3---5--7----| 
A-]-1-1-1-1-1----5---------------5------------5--------------]-5---1---3--5----| 
E-]--------------3---------------3------------3--------------]-3---------------| 
           Y   yo   aquí    se    jugandome la vida 
             A cara o cruz          a cara o cruz 
  

D                               D 
Tipos vestidos con traje gris por las calles de Madrid 
C                             C                                           G 
trabajando como hormigas para irse a las Malvinas, 
B              B    G 
a las Malvinas, a las Malvinas, a las Malvinas 
D                                     D                C                                                C 
Y yo que puedo conseguir no me gusta lo que hay aquí nunca encuentro lo que busco y nunca busco lo que 
         B 
encuentro y lo que busco no lo encuentro. 
  

Sigue de nuevo el riff A , el estribillo y luego esto: 

Riff C: dos veces 
E-]----------------------------------------------------------------------------| 
B-]-7--7-7-8-7---7-7-7-8-7--5--5-5-6-5--5-5-5-6-5--3--3-3-4-3--3-3-3-4-3-------| 
G-]-7--7-7-7-7---7-7-7-7-7--5--5-5-5-5--5-5-5-5-5--3--3-3-3-3--3-3-3-3-3-------| 
D-]----------------------------------------------------------------------------| 
A-]----------------------------------------------------------------------------| 
E-]----------------------------------------------------------------------------| 

E-]------------------------------------------------------] 
B-]------------------------------------------------------] 
G-]------------------------------------------------------] 
D-]------------------------------------------------------] 
A-]-5------5-/-3----3-----5-3--5------5-/-3----3-----5-3-] 
E-]-3--3-3--------3---3-3------3--3-3--------3---3-3-----] 

   Solo: dos veces 
E-]------------------------------------] 
B-]------------------------------------] 
G-]------------------------------------] 
D-]-7----(7)--9----(9)--10---(10)-12---] 
A-]-5----(5)--7----(7)--8----(8)--10-/-] 
E-]------------------------------------] 
  

F                B          G 
Llévame contigo al país donde los sueños no tienen fin 
F                B          G 
llévame contigo al país donde las noches no tienen fin 
F                B          G 
llévame contigo al país donde los sueños no tienen fin 
F                C          D 
llévame contigo al país donde las noches no tienen fiiiiiiin 
  

Y para terminar se repite de el Riff A y el estribillo.


Letra subida por: Anónimo

El acorde de A Cara O Cruz de Angeles Del Infierno es una versión de la canción original realizada por colaboradores/usuarios de Coveralia.

¿Has encontrado algún error en esta página? Envíanos tu corrección del acorde