música
Buscador

Acorde de 93 Million Miles - Jason Mraz

Letra de 93 Million Miles

 Intro:

E

e|-------------------------------------0------0----|

B|-------0-------0---------------------------------|

G|-1--1------1-------1----1------------------------|

D|-2----------------------2--4--2--2------2----2---|

A|-2-------------------------2--2------------------|

E|-0---0---0---0---0----0---0--0--0--0------0----0-|



A Fm E

e|--5--4--------------5--4----2---4--2--0-----0-------|

B|--2--2--2--2--------2--2----2-----------4/5---------|

G|--2--2--2--2--1-2-1-2--2----2-----------------2-----|

D|--2--2--2--2--2-2-2-2--2----4-------------------2---|

A|--------0-------------------4-----------------------|

E|--------------------------2-----------------------0-|



E

e|-0--------0-------------------0---------------|

B|-0--0--0-----0--0-------------0----0---0------|

G|-1--1--1-----1--1---1---------1---------------|

D|-2--2--2-----2--2---2---4--2--2--2---2---2--2-|

A|-2--2--2-----2--2-------2--2--2--2---2---2--2-|

E|-0—0--0-----0--0-----0--0-0--0----------------|



E

93 million miles from the sun



People get ready, get ready

A

Cause here it comes, it's a light

Fm

A beautiful light, over the horizon



Into our eyes



E

Oh, my my how beautiful



Oh my beautiful mother

A

She told me, son in life you're gonna go far

Fm B

If you do it right, you'll love where you are





A Fm

Just know, wherever you go

B E

You can always come home



( (Passagem 1) A (Passagem 1) Fm )



E

240 thousand miles from the moon



We've come a long way to belong here

A

To share this view of the night



A glorious night

Fm

Over the horizon is another bright sky

E (Passagem 3)

Oh my my how beautiful, oh my irrefutable father

A

He told me, son sometimes it may seem dark

Fm B

But the absence of the light is a necessary part

http://www.coveralia.com/acordes/93-million-miles-jason-mraz.php





A Fm B E

Just know, you're never alone, you can always come back home



A Fm

Ohhh, ohhh

B C#m B A

You can always come back



( B )



B A

Every road is a slippery slope

A B

But there is always a hand that you can hold on to

B A

Looking deeper through the telescope

A/Bb B B/C

You can see that your home's inside of you

A Fm

Just know, that wherever you go,

A B E

no you're never alone, you will always get back home



(Passagem 1) A (Passagem 1) Fm (Passagem 2) E

Ohhh, ohhh



A Fm

Ohhh, ohhh

E

Ohhh



E

93 million miles from the sun



People get ready, get ready

A

Cause here it comes, it's a light

Fm

A beautiful light, over the horizon

E

Into our eyes



ocultar esta pestaña

Passagem 1:

e|--5--4-|

B|--2--2-|

G|--2--2-|

D|--2--2-|

A|-------|

E|-------|



Passagem 2:

e|--4--3--|

B|--2--2--|

G|--2--2--|

D|--2--2--|

A|--------|

E|--------|



Passagem 3:

e|-----------|

B|-----------|

G|-----------|

D|-----------|

A|-----------|

E|--0--2--4--|

Letra subida por: Anónimo

El acorde de 93 Million Miles de Jason Mraz es una versión de la canción original realizada por colaboradores/usuarios de Coveralia.

¿Has encontrado algún error en esta página? Envíanos tu corrección del acorde