música
Buscador

Acorde de 4 Elementos - La Musicalite

Letra de 4 Elementos

Intro: A#m F#  G# A#m



e|-4-6----4-6-----------------9---6------9---6------------------5/9/6-6---|

B|----6------6---4-6---4-6-----6-9---6-9--6-9----4-6----4-6---------------|

G|------------------3-----3--------------------------3------3-------------|

D|------------------------------------------------------------------------|

A|------------------------------------------------------------------------|

E|------------------------------------------------------------------------|





A#m F#

Siento paz en tu cuerpo

G# A#m

Y siento el viento por ti

A#m F#

Vuelo hacia tus besos

G# A#m (Riff 1)

Te quiero siempre aquí.



Coro:

(Riff 2) F#

No puedes decir que no

G#

No puedes decir jamás

A#m

No debes pedir perdón



Tan sólo: te quiero más.

F#

Dolor que no puedo ver

G#

Ni siento cuando te vas

A#m

No puedes decirme adiós

Fm

Te llevo en mí caminar.

(Riff 3) D#m

Gritando que no me ves

G# A#m

Rezando porque tú vuelvas otra vez.



Verso:

A#m F#

Duermo en ti y en tu fuego

G# A#m (Riff 4)

Muero al fin en tu mar

A#m F#

Mi aire son ya tus versos

G# A#m

Mi tierra es tu despertar.



Coro:

F# (Riff 2)

No puedes decir que no

G#

No puedes decir jamás

A#m

No debes pedir perdón



Tan sólo: te quiero más.

F#

Dolor que no puedo ver

G#

Ni siento cuando te vas

A#m

No puedes decirme adiós

Fm

Te llevo en mí caminar.

D#m (Riff 3)

http://www.coveralia.com/acordes/4-elementos-la-musicalite.php

Gritando que no me ves

G# A#m

Rezando porque tú vuelvas otra vez





Punteo: A#m-F#-A#m-D#m





F# G#

Tu voz es lo que me das

A#m

Es dulce canción de amor



Que nunca podré cantar.

F#

Dolor que no quiero ver

G#

Dolor que nunca se va

A#m

No puedo decirle adiós

Fm

Ni quiero decir jamás.

D#m

Tumbado al amanecer

G# A#m

Llorando porque tú vuelvas otra vez.



Fm

No puedes decir que no

D#m

Te llevo en mí caminar

G# A#m

Rezando porque tú vuelvas otra vez.







Riff 1

e|---13/---|

B|---------|

G|---------|

D|---------|

A|---------|

E|---------|



Riff 2

e|-4-6--4-6---9-6----4-6--4-6---11-6---4-6--4-6--4-6---4-6--4-6--4-6---|

B|----6----6------------6----6------------6----6----------6----6-------|

G|---------------------------------------------------------------------|

D|---------------------------------------------------------------------|

A|---------------------------------------------------------------------|

E|---------------------------------------------------------------------|



Riff 3

e|-4-6--4-6---9-6--9-11-13-14-13---|

B|----6----6-----------------------|

G|---------------------------------|

D|---------------------------------|

A|---------------------------------|

E|---------------------------------|



Riff 4

e|-4-4--4h6-----|

B|----6-----6---|

G|--------------|

D|--------------|

A|--------------|

E|--------------|

Letra subida por: Anónimo

Discos en los que aparece este acorde: 4 Elementos

El acorde de 4 Elementos de La Musicalite es una versión de la canción original realizada por colaboradores/usuarios de Coveralia.

¿Has encontrado algún error en esta página? Envíanos tu corrección del acorde