música
Buscador

Acorde de 2 Become 1 - Spice Girls

Letra de 2 Become 1

Tom: Em7



Intro: Em7 D/F# G A7sus



Em7 D/F#

Candle light and soul forever

G A7sus

A dream of you and me together

Em7 D/F# G A7sus

Say you believe it, say you believe it

Em7 D/F#

Free your mind of doubt and danger

G A7sus

Be for real don't be a stranger

Em7 D/F# G A7sus

We can achieve it, we can achieve it

C Bm7 Am7

Come a little bit closer baby, get it on, get it on

C(w/fill) Bm7(w/fil2) Am7 D11

Cause tonight is the night when 2 become 1



FILL 1 FILL 2

E------10---------- | E--7--------------- |

B--7-8------------- | B----10-8-7-------- |

G------------------ | G------------------ |

D------------------ | D------------------ |

A------------------ | A------------------ |

E------------------ | E------------------ |



Chorus:

G D C

I need some love like I never needed love before

C D

(wanna make love to ya baby)

G D C

I had a little love, now I'm back for more

C D

(wanna make love to ya baby)

F G Bb C G

Set your spirit free, its the only way to be



Verse 2:

Em7 D/F#

Silly games that you were playing

G A7sus

Empty words we both were saying

http://www.coveralia.com/acordes/2-become-1-spice-girls.php

Em7 D/F# G A7sus

Lets work it out boy, lets work it out boy

Em7 D/F#

Any deal that we endeavor

G A7sus

Boys and girls feel good together

Em7 D/F# G A7sus

Take it or leave it, take it or leave it

C Bm7

Are you as good as I remember baby

Am7

Get it on, get it on

C (w/fill) Bm7 (w/fil2) Am7 D11

Cause tonight is the night when 2 become 1



CHORUS (1x)



GUITAR SOLO:

E--7-8-10-8---7--------------------------- |

B---------------8----7-8-7---------------- |

G------------------7--------7---9--------- |

D----------------------------------------- |

A----------------------------------------- |

E----------------------------------------- |

E----------------------------------------- |

B-----------8---7-7----------------------- |

G---7----7----------9-9-7-9--------------- |

D----10----9------------------------------ |

A----------------------------------------- |

E----------------------------------------- |

E-------------7-10-10/12------------------ |

B------7-8-10----------------------------- |

G--7-9------------------------------------ |

D----------------------------------------- |

A----------------------------------------- |

E----------------------------------------- |



C Bm7

Be a little bit wiser baby

Am7

Put it on, put it on

C(w/fill) Bm7(w/fil2) Am7 D11

Cause tonight is the night when 2 become 1



CHORUS

El acorde de 2 Become 1 de Spice Girls es una versión de la canción original realizada por colaboradores/usuarios de Coveralia.

¿Has encontrado algún error en esta página? Envíanos tu corrección del acorde