música
Buscador

Acorde de 1+1=2 Enamorados - Luis Miguel

Letra de 1+1=2 Enamorados

=INTRO=

G Em

E-----------8-8-7-7---------------8-8-7-7------

B--8-10-8--8-------10-8--8-10-8--8-------10-8--

G----------------------------------------------

D----------------------------------------------

A----------------------------------------------

E----------------------------------------------



Am C D D7

E----7------10-10-8-8-7-----------------7-8-7----

B--10-10--10-----------10--7-8-7-7-10-10-----10--

G------------------------------------------------

D------------------------------------------------

A------------------------------------------------

E------------------------------------------------



=ESTROFA 1=

G Em

Quiero... Tú me miras y sé que te quiero...

Am

Y me enredo en tu piel, te quiero...

C D

En tus manos yo siento el calor de ti,

D7

De esta vida misma...



=ESTROFA 2=

G Em

Quiero... Cuando te amo yo sé que te quiero...

Am

Soy un fuego que llega hasta el cielo...

C D

Y te cubro y te siento y ya somos dos,

D7

Dos enamorados...



=CORO=

G Em

Somos dos, dos enamorados y un amor dulce, libre y claro,

Am C D D7

Al soñar vamos poco a poco encerrando el mundo entre las manos,

G Em

Somos dos, dos enmaorados que se dan todo con el alma,

Am C D D7

Viento y mar, furia desatada, que_al final se funden en un alma...

G Em Am C D D7

Da da da da... Da da da da... Da da da da ahahah...



=ESTROFA=

http://www.coveralia.com/acordes/1-1=2-enamorados-luis-miguel.php

G Em

Quiero... Tú me miras y sé que te quiero...

Am

Y me enredo en tu piel, te quiero...

C D

Y te cubro y te siento y ya somos dos,

D7

Dos enamorados...



=CORO=

G Em

Somos dos, dos enamorados y un amor dulce, libre y claro,

Am C D D7

Al soñar vamos poco a poco encerrando el mundo entre las manos,

G Em

Somos dos, dos enmaorados que se dan todo con el alma,

Am C D D7

Viento y mar, furia desatada, que_al final se funden en un alma...



=PUNTEO INTERMEDIO= (corresponde a la INTRO + un juego vocal)

G Em

E-----------8-8-7-7---------------8-8-7-7------

B--8-10-8--8-------10-8--8-10-8--8-------10-8--

G----------------------------------------------

D----------------------------------------------

A----------------------------------------------

E----------------------------------------------

DA DA DA DA...



Am C D D7

E----7------10-10-8-8-7-----------------7-8-7----

B--10-10--10-----------10--7-8-7-7-10-10-----10--

G------------------------------------------------

D------------------------------------------------

A------------------------------------------------

E------------------------------------------------

DA DA DA DA... DA DA DA DA AHAHAHAHAAA...



=CORO FINAL= (es cantado por las coristas mientras Luis Miguel hace

unos juegos vocales imposibles de anotar, se toca 5 veces)

G Em

Somos dos, dos enamorados y un amor dulce, libre y claro,

Am C D D7

Al soñar vamos poco a poco encerrando el mundo entre las manos,

G Em

Somos dos, dos enamorados que se dan todo con el alma,

Am C D D7

Viento y mar, furia desatada, que_al final se funden en un alma...



El acorde de 1+1=2 Enamorados de Luis Miguel es una versión de la canción original realizada por colaboradores/usuarios de Coveralia.

¿Has encontrado algún error en esta página? Envíanos tu corrección del acorde